Blogia
Spleen

Born to be wild

Hoy he estado practicando hasta que me ha salido entera esta canción. La muy jodida me ha costado. Pero es increible para tocarla.
La verdad esque me encanta esta canción. Hacía mucho tiempo que tenía ganas de tocarla. Los lobos esteparios han nacido para ser salvajes.

INTRODUCTION
============
The fist hammer is not heavy; it's much more like the start
of the slide up which is quick.

G----------------
D---------------- 3 times, then
A0-h25---p0-h7--
E----------------

Again, the slide up is quick

1 & 2 & 3 & 4 &
G79---7---9-7-----
D ------9---------
A --------------5-
E ------------7---

VERSE
=====
Watch timing and muted notes which are indicated with an "x".

1 & 2 & 3 & 4 & 1 & 2 & 3 & 4 & 1 & 2 & 3 & 4 & 1 & 2 & 3 & 4 &
G----------------------------------------------------------------
D-------------------------------5--------------------------------
A7---x-7---x---5-7---x-7-x--75-5-7---x-7---x---5-7---x-7-x--75---
E------------7----------------7--------------7----------------753

The same thing as above but the last note is different.

1 & 2 & 3 & 4 & 1 & 2 & 3 & 4 & 1 & 2 & 3 & 4 & 1 & 2 & 3 & 4 &
G----------------------------------------------------------------
D-------------------------------5--------------------------------
A7---x-7---x---5-7---x-7-x--75-5-7---x-7---x---5-7---x-7-x--75---
E------------7----------------7--------------7----------------750

1 & 2 & 3 & 4 & 1 & 2 & 3 & 4 &
G--------------------9-9-7-------
D------------------9-------9-7--- 3 times, then
A--------0-----0-7---------------
E3-----3-----------------------0-

1 & 2 & 3 & 4 &
G----------------
D----------------
A--------0-----0-
E3-----3---------

BRIDGE: Before second verse only
======
Pointed notes are slightly muted.

1 & 2 & 3 & 4 &
G----------------
D----------------
A7-----------5.--
E----------7.--7.

VERSE
=====

PRE-CHORUS
==========
1 & 2 & 3 & 4 & 1 & 2 & 3 & 4 & 1 & 2 & 3 & 4 &
G------------------------------------------------
D------------------------------------------------
A------------------------------------------------
E0-0-0-0-0-0-0-0-0-0-0-0-0-0-0-0-0-0-0-0-0-0-0-0-

1 & 2 & 3 & 4 & 1 & 2 & 3 & 4 & 1 & 2 & 3 & 4 &
G------------------------------------------------
D------------------------------------------------
A------------------------------------------------
E3-3-3-3-3-3-3-3-3-3-3-3-3-3-3-3-5-5-5-5-5-5-5-5-

1 & 2 & 3 & 4 & 1 & 2 & 3 & 4 & 1 & 2 & 3 & 4 &
G------------------------------------------------
D------------------------------------------------ Some quiet notes
A------------------------------------------------ are not tabbed here
E3-3-3-3-3-3-3-3-0------------------------------- in the last bar

CHORUS
======
1 & 2 & 3 & 4 & 1 & 2 & 3 & 4 &
G--------------------------------
D-------------------------------- 4 times
A7---------------5---------------
E--------------------------------

SOLO
====
Start by playing twice the first four bars of the verse then play

1 & 2 & 3 & 4 &
G---------------- This bar slightly differ from the song track
D----------------
A7-7-7-7-7-----5- 3 times, then
E----------5h7---

1 & 2 & 3 & 4 &
G--------------7-
D----------7h9---
A7-7-7-7-7-------
E----------------

1 & 2 & 3 & 4 &
G9-9-9-9-9-----7-
D----------7h9--- 4 times, then
A----------------
E----------------

1 & 2 & 3 & 4 &
G9-9-9-9-9-9-9-9-
D---------------- 4 times, then
A----------------
E----------------

1 & 2 & 3 & 4 &
G9/--------------
D----------------
A----------------
E----------------

VERSE
=====

PRE-CHORUS
==========

CHORUS
======

OUTRO: Different from the song track
=====
G79-----7-----------7-9-7-------------------------------------7-
D------7-----9---7-9-------9-7-9---------------------------7h9---
A--------------------------------7-7-7-7-7-7-7-7-7-7-7-7-7-------
E----------------------------------------------------------------

G9-------7-----------7-9-7-------
D------7-----9---7-9-------9-7-9-
A--------------------------------
E--------------------------------

G--------------------------------
D-------------------------------- Fade-out
A7-7-7-7-7-7-7-7-7-7---------5-6-
E--------------------0h35h7-----

That's it ... Enjoy!!

Taken from The Bass Tab Archive ~ http://www.basstabarchive.com
¿Y esta publicidad? Puedes eliminarla si quieres.

6 comentarios

Caronte -

Dios,,,,,,,esta me la apunto.
Tienes dirección de hotmail o de aol?

Lulu -

Lo sé, a veces parece demasiado complicado sonreir en este mundo, pero es complicado pero no imposible, recuerda!!!

-Que le dice una chinche a otra chinche? Te amo Chincheramente!!!!

Hasta esto puede tener su gracia... :-)

Caronte -

Aunque no lo parezca no hay nada más en la vida que me guste más que reir.
Digamos que por orden de preferencias tengo: Amor, Humor, Musica y sexo
Pero andas en lo cierto, no estoy pasando una buena racha.

Lulu -

jejeje, OK! Yo te ensenaré a sonreir, que últimamente no andas muy animado...

Caronte -

Yo con la guitarra soy malisimo, pero si quieres te enseño a tocar el bajo...

Lulu -

Ni sé ingles ni tocar la guitarra... si un alma caritativa quisiera en señarme.... jejeje
¿Y esta publicidad? Puedes eliminarla si quieres
¿Y esta publicidad? Puedes eliminarla si quieres